Rocky Horror Picture Show guitar chords (and some tabs)

Here's a very-nearly complete collection of Rocky Horror chords and tabs.  These transcriptions came from a number of sources.  Some of the tabs were by Tamir Haber.  I don't have the names of most others because they were in my personal collection, often from as far back as from the Usenet back in the mid '90s.  I did "Science Fiction/Double Feature reprise" myself because I couldn't find it on the web anywhere.


Science Fiction/Double Feature

A                                  G
Michael Rennie was ill the day the Earth stood still

       F                E      
But he told us where we stand

(same chords)
And Flash Gordon was there in silver underwear
Claude Rains was the invisible man
Then something went wrong for Fay Wray and King Kong
They got caught in a celluloid jam
Then at a deadly pace it came from outer space
And this is how the message ran

D       E       A      F#m
Science fiction double feature

(same chords)
Doctor X will build a creature
See androids fighting Brad and Janet
Anne Francis stars in Forbidden Planet

D                            E               A    F#m  A F#m
Oh, at the late night double feature picture show.

I knew Leo G. Carrol was over a barrel
When Tarantula took to the hills
And I really got hot when I saw Jeanet Scott
Fight a triffid that spits poison and kills
Dana Andrews said prunes, gave him the runes
And passing them used lots of skill
But when worlds collide, said George Powell to his bride
I'm gonna give you some terrible thrills, like a

Science fiction double feature
Doctor X will build a creature
See androids fighting Brad and Janet
Anne Francis stars in Forbidden Planet
Oh, at the late night double feature picture show
I wanna go
Oh, to the late night double feature picture show
By RKO
Oh, at the late night double feature picture show
In the back row
Oh, at the late night double feature picture show.


There's a Light (Over At The Frankenstein Place)

E
   In the dark of night
E/D
   Of the black night
A
   Burning bridge
Am                   E      C#
   There's a ... stone
C#                 F#      B
No matter lies Oh who you are

          E
There's a light... Over at the Frankestein
          A        Am
There's a light... Burning in the fires places
          E            C#                F#        B          E
There's a light       ... light ... in the darkness of everybody's life

     E           E/D#           C#m
The darkness must         down the river of nights screaming
E              E/D#          C#m
   Flow morphia low            sun and light come screaming
        A             B
Into my life...  into  my life


The Time Warp

A        A                  B    
   It's astounding; time is fleeting

G       D           A                                                B       
madness   takes its toll.  But listen closely - not for very much longer -

G           D         A
I've got to - keep control.

                           B       G        D               A
I remember - doing the Time Warp   Drinking   those moments when

                                                   B
the blackness would hit me - and the void would be calling....

F     C      G    D    A
Let's do the Time Warp again!  (x2)

(N.C)                        E                          A
It's just a jump to the left - and then a step to the ri-ight

                             E                         A
With your hands on your hips - you bring your knees in tight

                    D                                 A
But it's the pelvic thrust - that really drives you insa-ane

Let's do the Time Warp again! (x2, chords as above)

        A                   B                     G      D           A
It's so dreamy - oh fantasy free me! So you can't see me - no not at all.

                                            B     
In another dimension, with voyeuristic inten-tion,

       G      D          A
Well secluded   I'll see all.

                                                B
With a bit of a mind flip - you're into the time slip

G       D                  A
Nothing can ever be the same

                                                     B
You're spaced out on sensation - like you're under sedation!

Let's do the Time Warp again! (x2, chords above)

Well I was tapping down the street just-a having a think

                                       A7           D
When a snake of a guy gave me an evil wink, well it shook me up,

                                 A
it took me by surprise, he had a pick-up truck and the devil's eyes,

   E                  D              A
He stared at me and I felt a change, Time meant nothing never would again.

Let's do the Time Warp Again (x2)

It's just a jump to the left...


Sweet Transvestite

Intro : E

     D# E           
        How do you do, I
     F# G
        See you've met my
     G# A
        Faithful handyman.

     D# E G  G# A A

     D# E
        He's just a little brought down
     F# G
        Because when you knocked
     G# A
        He thought you were the candyman.
       
     D# E G  G# A A

     D# E                   
        Don't get strung out
     F# G
        by the way I look.
     G# A                         D# E
        Don't judge a book by its cover.

     D# E                   
        I'm not much of a man
     F# G
        by the light of day
     G# A                              D# E
        But by night I'm one hell of a lover.
       
        E          B
        I'm just a sweet transvestite
            A                      E    D# E
        From Transexual, Transylvania.
       
     D# E                   
        Let me show you around
     F# G
        Maybe play you a sound.
     G# A                                D# E
        You look like you're both pretty groovy.

     D# E                   
        Or if you want something visual
     F# G
        That's not too abysmal,
     G# A                          D#  E
        We could take in an old Steve Reeves movie.
       
     D# E                   
        I'm glad we caught you at home,
     F# G
        Could we use your phone?
     G# A                              D# E
        We're both in a bit of a hurry.    Right.
       
     D# E                   
        We'll just say where we are,
     F# G
        Then go back into the car.
     G# A                             D#  E
        We don't want to be any worry.
       
     D# E                   
        Well you got with a flat,
     F# G
        Well, how 'bout that?
     G# A                      D# E
        Well, babies, don't you panic.

     D# E                   
        By the light of the night
     F# G
        It'll all seem alright.
     G# A                     D# E
        I'll get you a satanic mechanic.
   
        E          B
        I'm just a sweet transvestite
            A                      E    D# E
        From Transexual, Transylvania.
       
     D# E                   
        Why don't you stay for the night?  Night.
     F# G
        Or maybe a bite?  Bite.
     G# A                            D# E
        I could show you my favorite ... obsession.

     D# E                   
        I've been making a man
     F# G
        With blond hair and a tan
     G# A                             D# E
        And he's good for relieving my ... tension
       
        E          B
        I'm just a sweet transvestite
            A                      E    D# E
        From Transexual, Transylvania.        HIT IT! HIT IT!
        E          B
        I'm just a sweet transvestite, Sweet transvestite
            A                      E    D# E
        From Transexual, Transylvania.

        E       (with a slide!)

                                 E
        So - come up to the lab,
                                    G
        And see what's on the slab.
                                         N.C.
        I see you shiver with antici ...
                    E  
        ... pation.

                           E
        But maybe the rain
                               G
        Isn't really to blame.
                                  A
        So I'll remove the cause.   
                                        E
        (chuckles) But not the symptom.


The Sword of Damocles

Am                       D               Am     D
The Sword of Damocles is hanging over my head
Am                                  D                    Am      D
And I've got the feeling someone's gonna be cutting the thread
C#         D
Oh, woe is me
E             Am
My life is a misery
C#         D
Oh, can't you see
E                                              D C# C Am
That I'm at the start of a pretty big downer

I woke up this morning with a start when I fell out of bed (That ain't no crime)
And left from my dreaming was a feeling of unnameable dread (That ain't no crime)
My high is low
I'm dressed up with no place to go
And all I know
Is I'm at the start of a pretty big downer (Oh, Rocky!)

Am         D
Sha la la la
That ain't no crime (Oh no no no)
Am        D
Sha la la la
That ain't no crime  (Oh no no no)
Am         D
Sha la la la
                                     E     D C# C Am
That ain't no crime, that ain't no crime

The Sword of Damocles is hanging over my head (That ain't no crime)
And I've got the feeling someone's gonna be cutting the thread (That ain't no crime)
Oh, woe is me
My life is a mystery
And can't you see
That I'm at the start of a pretty big downer

Sha la la la
That ain't no crime
Oh no no no
Sha la la la
That ain't no crime
Oh no no no
Sha la la la
That ain't no crime, that ain't no crime (x2)


I Can Make You A Man
 
Key:
~ - vibrato
! - short stroke of the chord

Frank:
  C                 E
A weakling...       ninety-eight...
         Am
Will get sand...
     F!
When kicked...
    F                      D
And soon...                determined chin...
    C                          A
The sweat...             as he works...
                       D
Will make him...

         G
And with massage...
         F              C
He'll be pink...        clean
           G          F
He'll be a strong...
 
        C
-But the wrong...
 
Frank:
          C               E
He'll eat nutritious...
    Am                     Am/G
And swallow...
F          D
  Try to build...                    chest...
C                           A
  Such an...                knew of...
   Dm                  G
In just...
                 F     C   G
I can...         maaaaan.
         C              E
He'll do press...
       Am                 Am/G
Do the smearch...
   F                      D
He thinks...              must be...
C                              A
  Such strenuous...            don't understand...
        Dm                   G                           F     C
When in just              ...oh baby...                  maaaaan.


Hot Patootie - Bless My Soul

( Intro : C#                   A# )
(         C#                   A# )

C#                   A#
Whatever happened to Saturday night,
C#                                A#
When you dressed up sharp and you felt alright?
F#                           G#
It don't seem the same since cosmic light
F#                   G#
Came into my life, I thought I was divine.

C#                             A#
I used to go for a ride with a chick who'd go,
C#                             A#
And listen to the music on the radio;
F#                           G#
A saxophone was playing in a rock 'n roll show.
F#                            G#
You climbed in the back seat, you really had a good time.

C#            D#             F#                 C#
Hot patootie, bless my soul, I really love that rock 'n roll.
C#            D#             F#                 C#
Hot patootie, bless my soul, I really love that rock 'n roll.
C#            D#             F#                 C#
Hot patootie, bless my soul, I really love that rock 'n roll.
C#            D#             F#                 C#
Hot patootie, bless my soul, I really love that rock 'n roll.

( Sax solo : C#            D#             F#                 C# )
(            C#            D#             F#                 C# )

( Middle break : F# C#   F# C# )

C#                            A#
My head used to swim from the perfume I smelled.
C#                                A#
My hands kind of fumbled with her white plastic belt.
F#                               G#
I'd taste her baby pink lipstick and that's when I'd melt
F#                                  G#
And she'd whisper in my ear tonight she really was mine.

C#                     A#
Get back in front, put some hair oil on
C#                          A#
Buddy Holly was singing his very last song.
F#                                           G#
With your arms around your girl you'd try to sing along.
F#                       G#
It felt pretty good. Woo You really had a good time.

C#            D#             F#                 C#
Hot patootie, bless my soul, I really love that rock 'n roll.
C#            D#             F#                 C#
Hot patootie, bless my soul, I really love that rock 'n roll.
C#            D#             F#                 C#
Hot patootie, bless my soul, I really love that rock 'n roll.
C#            D#             F#                 C#
Hot patootie, bless my soul, I really love that rock 'n roll.

( Sax solo : C#            D#             F#                 C# )
(            C#            D#             F#                 C# )

( Sax solo continues over chorus... )

D             E              G                  D
Hot patootie, bless my soul, I really love that rock 'n roll.
D             E              G                  D
Hot patootie, bless my soul, I really love that rock 'n roll.
D             E              G                  D
Hot patootie, bless my soul, I really love that rock 'n roll.
D             E              G                  D
Hot patootie, bless my soul, I really love that rock 'n roll.
D             E              G                  D
Hot patootie, bless my soul, I really love that rock 'n roll.
D             E              G                  D
Hot patootie, bless my soul, I really love that rock 'n roll.
D             E              G                  D
Hot patootie, bless my soul, I really love that rock 'n roll.
D             E              G                  D
Hot patootie, bless my soul, I really love that rock 'n roll.


I Can Make You a Man (Reprise)
 
      F            D#
But a deltoid...
 F               D#
A hot...         tricep...
         F      D#
Makes me...
                 Bb                       G
Makes me...      take Charles...           ha-ha-hand.
   C                              F                   D#    Bb
In just             ... oh, baby ...                  maaaaaan.
F                D#          F            D#
  I don't...      dissention...            tension.
 
Bb            G
-I'm a...
 
   C               F                 D#    Bb
In just...         I can...          maaaaaan.
          G
Dig it...
   C               F                 Gm
In just...         I can...          man.
 
Wedding theme (Elec. Guitar w/ Dist.):

--------------------------------------------------------------------
--------------------------------------------------------------------
--15~--14~----------------------------------------------------------
-----------14--17-15------------------------------------------------
---------------------18-15----------15----17------------------------
---------------------------18-17-18----13------6-8--10-11-13-17-----
                                                                            

------------------------------------------------------------------------------
------------------------------------------------------------------------------
--15~-14~----------------------------------------15~--------------------------
----------14-17-15------------------------------------------------------------
-------------------18-15----------17--15--17-15-------------------------------
-------------------------18-17-18---------------------------------------------



Eddie's Teddy

            D                        G   A        D         D7
(DR. SCOTT) From the day he was born,      he was trouble.
                 G   A                      D   D7
He was the thorn       in his mutter's side
                   G   A             D                                  Bm
She tried in vain. (NARRATOR) But he never caused her nothing but shame.
         G                        A
(SCOTT)  He left home the day she died.

                          G  A         D
>From the day she was gone      All he wanted
                       G   A                 D
was rock and roll, porn,    und a motor bike
                 G         A          D                           Bm
Shooting up junk. (NARRATOR) He was a low-down, cheap little punk.
        G                     A
(SCOTT) Taking everyone for a ride.

CHORUS:

        D                  G
(ALL)   When Eddie said he didn't like his teddy
    A                         D G D
You knew he was a no good kid
                                    G
When he threatened your life with a switch blade knife --
         A                                                  D
(FRANK)  What a guy. (JANET)  Makes you cry. (SCOTT)  Und I did.

            E         A             E           A
(COLUMBIA)  Everybody shoved him. I very nearly loved him.
       D              D7          G
I said,  "Hey, listen to me. Stay sane inside insanity."
       E7                                 A
But he locked the door and threw away the key.

                                   G  A      D                         G
(SCOTT) But he must have been drawn     into something. Making him warn
A                       D
me in a note which reads   (ALL) What's it say?  What's it say?
                          G  A    D                 Bm
(EDDIE) I'm out of my hed.     O, hurry or I may be dead.
     G                            A
They mustn't carry out their evil deeds.


(Repeat CHORUS twice; the second time the last line goes:)

                G                       A                   D
(FRANK)  What a guy. (JANET)  Makes you cry. (SCOTT)  Und I did.
      C#   D
(ALL) Woe  woe.


Touch-a, Touch-a, Touch me

C#m
I was feeling done in,
B
couldn't win,
E                      F# 
I'd only ever kissed before.
B
I thought there's no use getting
E
into heavy petting.
G#
It only leads to trouble
G#
and seat wetting.

Now all I want to know
is how to go.
I've tasted blood and I want more (more, more).
I'll put up no resistance,
I want to stay the distance.
I've got an itch to scratch
and need assistance.

Refrain:
C#                            Bbm 
Touch me, touch me, touch me, touch me,
F#           C#   
I want to be dirty.
C#                      Bbm
Thrill me, chill me, fulfill me,
F#              C#
Creature of the Night.

Then if anything grows,
when you pose,
I'll oil you up and rub you down (down, down).
And that's just one small fraction
of the main attraction.
You need a friendly hand
and I need action.

Refrain: ...

Refrain: ...            (All chords one halfstep up,
                         e.g. C# -> D)


Planet, Schmanet, Janet

Intro: D - Bm
       D - Bm
       D - Bm
Bm                D       Bm             D
    I'll tell you once, I won't tell you twice.
Bm               D       Bm       D
    You'd better wise up    Janet Weiss.
Bm                D  Bm              D
    Your apple pie   don't taste too nice
Bm                    D  Bm        D
    You'd better wise up,    Janet Weiss

    A                     D
    I've laid the seed it should be all you need
    Bm
    You're as sensual as a pencil,
    Wound up like an E or a first string
    G                                    A
    When we made it, did you hear a bell ring?
 
              D            Bm        D
    You got a block? Well, take my advice
Bm                  D   Bm        D      Bm
    You better wise up      Janet Weiss.
    A              D
    The transducer will seduce ya.

    (My feet! I can't move my feet!)
    (My wheels! My God, I can't move my wheels!)
    (It's as if we're glued to the spot!)
    (You are! So quake with fear, you tiny fools!)
    (We're trapped!)

     Bm
     It's something you'll get used to -
     G                         A
     A mental mind fuck can be nice.

    (You won't find Earth people quite the easy mark you imagine. This sonic
     transducer - it is, I suppose, some kind of audio-vibratory
     physio-molecular     transport device?)
    (You mean...?)
    (Yes, Brad, it's something we ourselves have been working on for quite
     some time. But it seems our friend here has found a means of perfecting
     it. A device which is capable of breaking down solid matter and then
     projecting it through space and, who knows, perhaps even time itself!)
    (You mean he's going to send us to another planet?)

    D       Bm        D
    Planet, schmanet, Janet!
Bm                  D  Bm       D
    You better wise up    Janet Weiss.
Bm                  D   Bm         D          Bm
    You better wise up, build your thighs up, You better wise up

     Bm           D
    (And then she cried out...)
    A
    STOP!
   
    G                     A      D
    Don't get hot and flustered, use a bit of mustard

    D7       G                A                 D
    You're a hot dog, but you better not try to hurt her,
    Frank Furter.
    D7       G                A                 D
    You're a hot dog, but you better not try to hurt her,
    Frank Furter.
    D7
    You're a hot dog...


Rose Tint My World

                  C
(COLUMBIA) It was great when it all began
        F                    C
I was a regular Frankie fan
           C
But it was over when he had the plan
         D                       G
to start working on a muscle-man
        C
Now the only thing that gives me hope
      F                      C
is my love of a certain dope

Rose tints my world keeps me
G                        F     C
safe from my trouble and pain.

             C
(ROCKY)  I'm just seven hours old.
      F                    C
Truly beautiful to behold.

And somebody should be told
     D                       G
my libido hasn't been controlled.
        C
Now the only thing I've come to trust
      F                     C
is an orgasmic rush of lust

Rose tints my world keeps me
G                        F     C
safe from my trouble and pain.

        F               Fm
(BRAD)  It's beyond me. Help me, mommy.
C
I'll be good, you'll see. Take this dream away.
F                       Fm
What's this, let's see, I feel sexy.
C                                          G
What's come over me.  Whoa-- here it comes again.

             F                   Fm
(JANET)   Oh I--I feel released, bad times deceased
   C
My confidence has increased. Reality is here.
    F                           Fm
The game has been disbanded. My mind has been expanded
       C                                            G
It's a gas that Frankie's landed. His lust is so sincere.


Don't Dream It

         N.C.
(FRANK)  Whatever happened to Fay Wray?
That delicate satin-draped frame.
      F            G
As it clung to her thigh
C                Am
How I started to cry
         F                             G
'Cause I wanted to be dressed just the same.
F             Fm      C        C7
Give yourself over to absolute pleasure
F             Fm        C           C7
Swim the warm waters of sins of the flesh
F      Fm           C        C7
Erotic nightmares beyond any measure
    F       Fm           C           G
And sensual daydreams to treasure forever--
                             G7
Can't you just see it--oh oh ho.

C     Am       F  G
Don't dream it.   Be it.
C     Am       F  G
Don't dream it.   Be it.

(Repeated umpteen times, the others join in and Dr. Scott gives his speech:)

(SCOTT)  We've got to get out of this trap
Before this decadence saps our wills.
I've got to be strong and try to hang on.
Or else my mind may well snap
Und my life will be lived for the thrill.

        F               Fm
(BRAD)  It's beyond me. Help me, Mommy.
        C                  G
(JANET) God bless Lili St. Cyr.


Wild and Untamed Thing

          C7
 (FRANK)  My my my my my my my my
      F
I'm a wild and an untamed thing
      Bb                      F
I'm a bee with a deadly sting
          F
You gotta hit and your mind goes ping
              G                              C7
Your heart'll thump and your blood will sing.
           F
So let the party and the sounds rock on
           Bb                            F
I'm gonna shake it till the life has gone
F                           C                        Bb       C   F
Rose tint my world, keep me safe from my trouble and pain.

              F
(ALL) We're a wild and an untamed thing
        Bb                      F
We're a bee with a deadly sting
          F
You gotta hit and your mind goes ping
              G                              C7
Your heart'll thump and your blood will sing.
           F
So let the party and the sounds rock on
            Bb                             F
We're gonna shake it till the life has gone
F                           C                        Bb     F
Rose tint my world, keep me safe from my trouble and pain.

            Bb              Bbm
(RIFF) Frank 'n Furter, it's all over.
F                                                  F7
Your mission is a failure, your life style's too extreme.
Bb                      Bbm
I'm your new commander, you now are my prisoner.
     F                                         C
We return to Transylvania, prepare the transit beam.


I'm Going Home

F            Gm
On the day...
 Bb    F
-Goodbye...
 
F         Gm
Was all...
 
 Bb    F
-Now I...
 
F                    Gm
I want to...
 Bb      F
-Oh, my, my...
 
F                     Gm          C
 Smile, and...
 
Bb                               C
`Cause I've...
C
Through the...
Bb                           F       Gm
    And I realize...

 Bb        F      Gm    Bb  F
-I'm going...
 
F          Gm
Everywhere it's...
 
    Bb    F
-...feeling...
 
F                   Gm
...like I'm...
 
    Bb     F
-...wheeling...
 
F                  Gm
...free to...
 
    Bb    F
-...dealing...
 
F                    Gm              C
...cards for...
 

Bb                
   `Cause I've...

   Through the...
Bb                          F
   And I realize...
Gm   Bb        F
     I'm going...
Gm   Bb        F   
     I'm going...
Gm   Bb        F
     I'm going...


Superheroes

Key:
h: hammer on
p: pull off
s: slide
b: bend
r: release
~: vibrato

Intro (Piano):

Am                Am/G#               Am/G                Am/F#
------8-7-8--7-8--------8-7-8-10--------------8-7-8--7-8------------10-8-7h8p7--
----5----------------5------------5---------5-------------------5---------------
--------------------------------------------------------------------------------
--------------------------------------------------------------------------------
--------------------------------------------------------------------------------
--------------------------------------------------------------------------------

(Elec. Guitar w/ Dist.):
  F        E               Am
8s5~------8s4b5r4----4~----4b5---4b5---7~--4b5--4b5---------------------------
------------------------------------------------------------------------------
------------------------------------------------------------------------------
------------------------------------------------------------------------------
------------------------------------------------------------------------------
------------------------------------------------------------------------------
                                                                            
Brad:
 
Am                        Am/G#
 I've...                  God...
Am/G                       Am/F#
 To find...            I've...
  F                      E
 But all...          is down...
8s5~-------------------8s4~---------------------------------------------------
------------------------------------------------------------------------------
------------------------------------------------------------------------------
------------------------------------------------------------------------------
------------------------------------------------------------------------------
------------------------------------------------------------------------------

All:

    Am Asus2 A5
I'm ble -e-  ding...
--------4~----5~--------------------------------------------------------------
----------------------10b12--12b13--12b13r12s10-------------------------------
------------------------------------------------------------------------------
------------------------------------------------------------------------------
------------------------------------------------------------------------------
------------------------------------------------------------------------------

 
Janet:

Am                        Am/G#
 And...                   come...
Am/G                       Am/F#
 To taste...               not yet...
F             E
 And all...            is still..
 
 
All:
   Am Asus2 A5
Is fe -e-   ding...
 
------------------------------------------------------------------------------
----------------------10b12--12b13--12b13---12b14-----------------------------
------------------------------------------------------------------------------
------------------------------------------------------------------------------
------------------------------------------------------------------------------
------------------------------------------------------------------------------

A
Oooh...
------------------------------------------------------------------------------
14--14b15-15p14---------------------------------------------------------------
----------------14------------------------------------------------------------
------------------------------------------------------------------------------
------------------------------------------------------------------------------
------------------------------------------------------------------------------

D
Oooh...
------------------------------------------------------------------------------
14--14b15-15p14---------------------------------------------------------------
----------------14------------------------------------------------------------
------------------------------------------------------------------------------
------------------------------------------------------------------------------
------------------------------------------------------------------------------

A
Oooh...
------------------------------------------------------------------------------
14--14b15-15p14---------------------------------------------------------------
----------------14------------------------------------------------------------
------------------------------------------------------------------------------
------------------------------------------------------------------------------
------------------------------------------------------------------------------

D
Oooh...
------------------------------------------------------------------------------
14--14b15-15p14---------------------------------------------------------------
----------------14------------------------------------------------------------
------------------------------------------------------------------------------
------------------------------------------------------------------------------
------------------------------------------------------------------------------

A
Oooh...
------------------------------------------------------------------------------
14--14b15-15p14---------------------------------------------------------------
----------------14------------------------------------------------------------
------------------------------------------------------------------------------
------------------------------------------------------------------------------
------------------------------------------------------------------------------

D
Oooh...
------------------------------------------------------------------------------
14--14b15-15p14---------------------------------------------------------------
----------------14------------------------------------------------------------
------------------------------------------------------------------------------
------------------------------------------------------------------------------
------------------------------------------------------------------------------

A
Oooh...
------------------------------------------------------------------------------
14--14b15-15p14---------------------------------------------------------------
----------------14------------------------------------------------------------
------------------------------------------------------------------------------
------------------------------------------------------------------------------
------------------------------------------------------------------------------

D
Oooh...
------------------------------------------------------------------------------
14--14b15-15p14---------------------------------------------------------------
----------------14------------------------------------------------------------
------------------------------------------------------------------------------
------------------------------------------------------------------------------
------------------------------------------------------------------------------

A
Oooh...
------------------------------------------------------------------------------
14--14b15-15p14---------------------------------------------------------------
----------------14------------------------------------------------------------
------------------------------------------------------------------------------
------------------------------------------------------------------------------
------------------------------------------------------------------------------

D      B     E
Oooh...                    aaah, aaah.
-----------------------------------------------------------------------------
14--14b15-15p14------------14b16--16b17--------------------------------------
----------------14-----------------------------------------------------------
-----------------------------------------------------------------------------
-----------------------------------------------------------------------------
-----------------------------------------------------------------------------


Narrator:
(same as 1st verse)
 
All:
Am Asus2  A5
Me -a-    ning.


Science Fiction Double Feature (Reprise)

(Hey, beginners, it's not that hard.  It's just a half-step higher than the original.  Capo it at the first fret.)

Eb          F            Bb        Gm
Science Fiction double feature

Eb             F            Bb            Gm
Frank has built and lost his creature

Eb                        F            Bb            Gm
Darkness has conquered Brad and Janet

Eb                     F            Bb            Gm
The servants gone to a distant planet

Eb                                            F            Bb           
Oh, at the late night double feature picture show

Gm
I wanna go

Eb                     F            Bb            Gm
Oh, to the late night double feature picture show.


BONUS: Once In A While (Deleted song)

                  G                                        Em
Once in a while she don't want to call you
                  Am                D7
Speaking on the telephone
                                G                                    Em
And once in your life she won't want to know you
C                              C                                          D7
You look around, the one you found she is gone

(Repeat chords for the rest of the song)

And that's all the time that it takes
For a heart to turn to stone
The sweeter the wine the harder to make the break
You hear something about someone you thought you'd known

So baby don't cry like there's no tomorrow
After the night there's brand new day
And there'll be no pain and no more sorrow
So wash your face and phone my place, it'll be okay.

And that's all the time that it takes
For a heart to beat again
So give me a sign that a lover makes
You look around, the one you found is back again...

   

Layout copyright 2011 the Ale[x]orcist.
Home