Ghostbusters by Ray Parker, Jr. guitar tab

I found this on the web; it's not by me, but I checked it to see that it's in the right key and is accurate enough to use as a starting point if you're trying to learn this song.


Intro
Guitar
e]----------------------------------
B]----------------------------------
G]--3-4-3-4-3-4-3-4-3-4-3-4-3-4-3-4-
D]----------------------------------
A]----------------------------------
E]----------------------------------
Bass
G]--3-------12------11------10------
D]----------------------------------
A]----------------------------------
E]----------------------------------


Guitar
e]----------------------------------
B]----------------------------------
G]--3-4-3-4-3-4-3-4-3-4-3-4-3-4-3-4-
D]----------------------------------
A]----------------------------------
E]----------------------------------

Bass
G]--9-------19------15--------------
D]----------------------------------
A]----------------------------------
E]----------------------------------

Verse

Guitar                  
e]-------------5-4--    
B]-------------5-5--
G]--4-4--------6-4--
D]--4-4-------------
A]------------------
E]------------------x16

Bass
G]-------------2-1--
D]-------0-1-4------     
A]--2-2-------------    
E]------------------x16

On 5th time add Guitar 2

Guitar 2
e]------------------
B]--0-0-4-0-2-------
G]------------2-----
D]------------------
A]------------------
E]------------------

e]------------------
B]------------------
G]--4-4-4-4-2-4-----
D]------------------
A]------------------
E]------------------

Solo

Guitar

e]----------------------------
B]--3-0-3-0-3-0-3-0-3-0-------
G]-----------------------2-3-4
D]----------------------------
A]----------------------------
E]----------------------------

Every now and then the solo gets shifted up 12 frets.

Interlude

e]------
B]--4-2-
G]--4-2-
D]--4-2-
A]------
E]------

Structure

Intro
Verse
Solo
Verse
Solo
Verse
Interlude
Verse
Solo
Verse


Thats it.
Peace out.
Abe.

   

Layout copyright 2011 the Ale[x]orcist.
Home