The Ghastly Ones guitar tab

Here are two songs (plus a bit of one more) by The Ghastly Ones.  This is all the tab by them I could find on the web.  If you have more, please send it to me to post and share.  I love these guys!



Haulin' Hearse

Tabbed by "SpaceFargo" in the forums at surfguitar101.com.  You can read more discussion about this tab here: http://surfguitar101.com/forums/topic/14410/

I'm 90% sure the chords during the main section are A G A but my ear is admittedly terrible so take it with sufficient grains of salt. This is the way I play it, it's one of my favorites from the band.

(intro is palm muted with power chords here and there) 
e|--------------------------------|-------------------------------- 
B|--------------------------------|-------------------------------- 
G|--------------------------------|-------------------------------- 
D|--------------------------------|-------------------------------- 
A|0-000-0-0-0-0-0-0-0-0-0-0-------|0000000-0-0-0-0-0-0-0-0-0-0-0-0- 
E|--------------------------0-3-4-|--------------------------------

x4  
e|-------------------------------- 
B|-------------------------------- 
G|-------------------------------- 
D|-------------------------------- 
A|0-0-3-3-2-2-1-1-0-0-3-3-2-2-1-1- 
E|--------------------------------

x2                                                     Am  G Am 
e|--------------------------------|-------------------------------- 
B|--------------------------------|--------------------1---0-1----- 
G|--------------------------------|--------------------2---0-2----- 
D|--------------------------------|--------------------2---0-2----- 
A|0---0-2-3-2-0-3-2---------------|------0-2-0---2-0--------------- 
E|------------------0---0---0-0-0-|33333-------3-------------------

G, Db, C(x9) C B Bb

More palm-muted open A riffing

x2                      Em                            Am  G Am 
e|----------------------0---------|-------------------------------- 
B|----------------------0---------|--------------------1---0-1----- 
G|----------------------0---------|--------------------2---0-2----- 
D|----------------------2---------|--------------------2---0-2----- 
A|0---0-2-3-2-0-3-2-----2---------|------0-2-0---2-0--------------- 
E|------------------0---0---------|33333-------3-------------------

G, Db, C(x9) C B Bb

More palm-muted A

x4 
e|-------------------------------- 
B|-------------------------------- 
G|-------------------------------- 
D|-------------------------------- 
A|0-0-3-3-2-2-1-1-0-0-3-3-2-2-1-1- 
E|--------------------------------

G, Db, C(x9) C B Bb

A(x9), C B Bb A(x9), C B Bb 
G(x9), C B Bb A(x9), C B Bb

The solo chords are just Am and G like that 
Not sure what key the drum solo is in

x2 
e|-------------------------------- 
B|-------------------------------- 
G|-------------------------------- 
D|-------------------------------- 
A|0-0-3-3-2-2-1-1-0-0-3-3-2-2-1-1- 
E|--------------------------------

x2                                                     Am  G Am 
e|--------------------------------|-------------------------------- 
B|--------------------------------|--------------------1---0-1----- 
G|--------------------------------|--------------------2---0-2----- 
D|--------------------------------|--------------------2---0-2----- 
A|0---0-2-3-2-0-3-2---------------|------0-2-0---2-0--------------- 
E|------------------0---0---0-0-0-|33333-------3-------------------

x2                      Em                            Am  G Am 
e|----------------------0---------|-------------------------------- 
B|----------------------0---------|--------------------1---0-1----- 
G|----------------------0---------|--------------------2---0-2----- 
D|----------------------2---------|--------------------2---0-2----- 
A|0---0-2-3-2-0-3-2-----2---------|------0-2-0---2-0--------------- 
E|------------------0---0---------|33333-------3-------------------

G, Db, C(x9) C B Bb Am(5th fret barre)



The Ghastly Stomp

|-------------4----------------|
|-------------4----------------|
|-------------4----------------|
|-------------4----------------|
|-2-1---0-1---6----------------|
|3---2-0---2--6----------------|



Lonesome Undertaker

Tabbed by: Nathan
Email: brokenmarx at hotmail.com

Tuning: Standard e b g D A E

Intro/Main Riff

e|--4-------------------------------------------4~~-|
B|--4-------------------------------------------4~~-|
G|--4-4-6—4\2~~---------------------------------4~~-|
D|--6------------------6--6---6-4—4h6-----------6~~-|
A|--------------------6----6-6-------6-4-6------6~~-|
E|-----------------------------------------44---4~~-|

e|--------------------------------|
B|--------------------------------|
G|------------------------4---4~~-|
D|---6-6---6-4-4h6--------4---4~~-|
A|--6---6-6-------6-4-5--5--------|
E|--------------------------------|

e|---------------------------4~~-|
B|---------------------------4~~-|
G|---------------------------4~~-|
D|---6-6---6-4-4h6-----------6~~-|
A|--6---6-6-------6-4-6------6~~-|
E|----------------------44---4~~-|

e|--------------|
B|--------------|
G|--------------|
D|--------------|
A|--/66442211---|
E|-----------4--|

e|----------9-9-9-9------9-12-11-9-----4----4-4-4-4-----4-7-6-4---|
B|----------9-9-9-9---12-----------12\-4----4-4-4-4---7---------4-|
G|--2/11----9-9-9-9--11------------11\-4----4-4-4-4--6------------|
D|--4/11----------9--------------------6----------4---------------|
A|--4/11-x-x---------------------------6-x-x----------------------|
E|--2/-9-x-----------------------------4-4------------------------|

e|-------9-9-9-9------9-12-11-9------------------------------------|
B|-------9-9-9-9---12-----------12\--------------------------------|
G|-11----9-9-9-9--11------------11\--11-11\--12-12\-13-13\--12-12\-|
D|-11----------9---------------------13-13\--14-14\-15-15\--14-14\-|
A|-11-x-x----------------------------13-13\--14-14\-15-15\--14-14\-|
E|--9-x------------------------------11-11\--12-12\-13-13\--12-12\-|

e|-------------------------------------------------------|
B|--------------------------------4----4----4----4-------|
G|--------------------------4-6b(8)6b(8)6b(8)6b(8)-6p4-4-|   Etc.
D|---6-6---6-4-4h6---------6--------------------------6--|
A|--6---6-6-------6-4-6----------------------------------|
E|----------------------44-------------------------------|







e|-----------------------------------------------------------|
B|-----------------------------------------------------------|
G|-----------------------------------------------------------|  
D|---6-6---6-4-4h6-------------------------------------------|
A|--6---6-6-------6-4-6-----2-4b(5)4b(5)4-4p2-2-66442211-----|
E|----------------------44-4-----------------4----------4----|

Riff 2

e|-------------4---|
B|-----6-------4-4-|
G|--8--8-8--6----6-|
D|--8-8--8--6-8--6-|
A|--6x6-----4x6----|
E|-----------------|

Fill

e|--4--4--4-4--4-4-|
B|--7--7--6-6--4-4-|
G|-----------------|
D|-----------------|
A|-----------------|
E|-----------------|

Then comes Riff 2, with small variations, and ends like this:

e|---------------|
B|--4-6-4--4-6-4-|
G|--6-8-6--6-8-6-|
D|--6-8-6--6-8-6-|
A|--4x6-4--4x6-4-|
E|---------------|

e|--4--4--4-4--4-4-|
B|--7--7--6-6--4-4-|
G|-----------------|
D|-----------------|
A|-----------------|
E|-----------------|

e|----------------------------|
B|----------------------------|
G|--6--6-6--4--4-4-444444444~-|
D|--6--6-6--4--4-4-666666666~-|
A|--4--4-4--2--2-2-666666666~-|
E|-----------------444444444~-|

Solo

e|----------------------------------------------------------------------------|
B|----------------------------------------------------------------------------|
G|-------3h4p3-4-4/6-4-p3-3/4~-\3--\1~~------------3h4p3-4-/6-4-6/-8~-8h9p8-9-|
D|---6~----------------------------------------6~-----------------------------|
A|--6-------------------------------------6-6-6-------------------------------|
E|----------------------------------------------------------------------------|




e|------------------------------------------------------------------|
B|-------------9~-11-11-11--11-9--7-7-9~-4-4--------4----4----------|
G|-11-8~(8)(8)-8~-10-11-10—-10-8--6-6-8~-4-4--4-6b(8)6b(8)(8)r6h4-4-|
D|-------------------------------------------6-------------------6--|
A|------------------------------------------------------------------|
E|------------------------------------------------------------------|

e|------------|
B|------------|
G|------------|  Etc.
D|------------|
A|--66442211--|
E|----------4-|

Ending:

e|------------|
B|------------|
G|------------|  X2
D|------------|
A|--66442211--|
E|----------4-|

And then the same, but a bit slower.

   

Layout copyright 2012 the Ale[x]orcist.
Home